June 26, 2012

Soulive + John Scofield ( Strat & Wha & Fuchs) - Red Baron


Very hot solo by Sco!!
Trying out the Fuchs amp. 7:11 changing setting.

Red Baron Tab
Red Baron
by Billy Cobham
Tab by Erich Schneider   (erichschneider1@yahoo.com)


Gm7  C9  

E-3-|----------------|-----------------3-|-----------------|
B---|----------------|-------------------|-----------------|
G---|----------------|-3-2---2-3---------|-----------------|
D---|-5---3-5-5-5-5--|-----5----5--------|--5---3-5-5-5-5--|
A---|----------------|-------------------|-----------------|
E---|----------------|-------------------|-----------------|


E---------------------------------------3--|--3--------------|
B--2-3---------2-3---------2-3-------------|-----------------|
G------3-2---------3-2---------3-2---------|-----------------|
D-----------5-----------5-----------5------|------3-5-5-5-5--|
A------------------------------------------|-----------------|
E------------------------------------------|-----------------|



E-------------------------------|--3----------------------------------|
B-----------------------------3-|----3--------------------------------|
G---3-2---2-3----------3---5-6--|----------3---2-0-------3-2---2------|
D-------5-----5----3-5----------|-------5--------------------5---5-3--|
A-------------------------------|-------------------5-4---------------|
E-------------------------------|-------------------------------------|


E--------|----------|-----------------------------------------------|
B--------|----------|-----------------------------------------------|
G---2----|----------|-----------------------------------------------|
D--------|---5------|-----------------------------------------------|
A--------|----------|-----------------------------------------------|
E--------|----------|-----------------------------------------------|

No comments:

Post a Comment